  0
SECTION
  2
HEADER
  9
$ACADVER
  1
AC1009
  9
$INSBASE
 10
0.0
 20
0.0
 30
0.0
  9
$EXTMIN
 10
-30.7777953606527
 20
-17.10770349906193
 30
0.0
  9
$EXTMAX
 10
30.7777953606527
 20
17.10770349906193
 30
0.0
  9
$LIMMIN
 10
219.6342623583849
 20
-1440.242137391337
  9
$LIMMAX
 10
429.6342623583848
 20
-1291.742137391337
  9
$ORTHOMODE
 70
     1
  9
$REGENMODE
 70
     1
  9
$FILLMODE
 70
     1
  9
$QTEXTMODE
 70
     0
  9
$MIRRTEXT
 70
     0
  9
$DRAGMODE
 70
     2
  9
$LTSCALE
 40
0.5
  9
$OSMODE
 70
   181
  9
$ATTMODE
 70
     2
  9
$TEXTSIZE
 40
1.75
  9
$TRACEWID
 40
0.05
  9
$TEXTSTYLE
  7
STANDARD
  9
$CLAYER
  8
ITEM_50
  9
$CELTYPE
  6
BYLAYER
  9
$CECOLOR
 62
   256
  9
$DIMSCALE
 40
0.5
  9
$DIMASZ
 40
2.5
  9
$DIMEXO
 40
1.0
  9
$DIMDLI
 40
7.0
  9
$DIMRND
 40
0.0
  9
$DIMDLE
 40
0.0
  9
$DIMEXE
 40
2.0
  9
$DIMTP
 40
0.1
  9
$DIMTM
 40
0.1
  9
$DIMTXT
 40
3.5
  9
$DIMCEN
 40
0.0
  9
$DIMTSZ
 40
0.0
  9
$DIMTOL
 70
     0
  9
$DIMLIM
 70
     0
  9
$DIMTIH
 70
     0
  9
$DIMTOH
 70
     0
  9
$DIMSE1
 70
     0
  9
$DIMSE2
 70
     0
  9
$DIMTAD
 70
     1
  9
$DIMZIN
 70
     0
  9
$DIMBLK
  1

  9
$DIMASO
 70
     1
  9
$DIMSHO
 70
     1
  9
$DIMPOST
  1

  9
$DIMAPOST
  1

  9
$DIMALT
 70
     0
  9
$DIMALTD
 70
     2
  9
$DIMALTF
 40
0.0393701
  9
$DIMLFAC
 40
1.0
  9
$DIMTOFL
 70
     1
  9
$DIMTVP
 40
0.0
  9
$DIMTIX
 70
     0
  9
$DIMSOXD
 70
     0
  9
$DIMSAH
 70
     0
  9
$DIMBLK1
  1
GENAXEH
  9
$DIMBLK2
  1

  9
$DIMSTYLE
  2
GENISO
  9
$DIMCLRD
 70
   256
  9
$DIMCLRE
 70
   256
  9
$DIMCLRT
 70
     2
  9
$DIMTFAC
 40
0.71
  9
$DIMGAP
 40
0.6
  9
$LUNITS
 70
     2
  9
$LUPREC
 70
     3
  9
$SKETCHINC
 40
5.40000000000009
  9
$FILLETRAD
 40
1.0
  9
$AUNITS
 70
     0
  9
$AUPREC
 70
     3
  9
$MENU
  1

  9
$ELEVATION
 40
0.0
  9
$PELEVATION
 40
0.0
  9
$THICKNESS
 40
0.0
  9
$LIMCHECK
 70
     0
  9
$BLIPMODE
 70
     0
  9
$CHAMFERA
 40
1.25
  9
$CHAMFERB
 40
1.25
  9
$SKPOLY
 70
     0
  9
$TDCREATE
 40
2450190.652853009
  9
$TDUPDATE
 40
2450317.355896180
  9
$TDINDWG
 40
2.9008857639
  9
$TDUSRTIMER
 40
2.9008857639
  9
$USRTIMER
 70
     1
  9
$ANGBASE
 50
0.0
  9
$ANGDIR
 70
     0
  9
$PDMODE
 70
     3
  9
$PDSIZE
 40
0.0
  9
$PLINEWID
 40
0.0
  9
$COORDS
 70
     1
  9
$SPLFRAME
 70
     0
  9
$SPLINETYPE
 70
     6
  9
$SPLINESEGS
 70
     8
  9
$ATTDIA
 70
     1
  9
$ATTREQ
 70
     1
  9
$HANDLING
 70
     1
  9
$HANDSEED
  5
AB
  9
$SURFTAB1
 70
     6
  9
$SURFTAB2
 70
     6
  9
$SURFTYPE
 70
     6
  9
$SURFU
 70
     6
  9
$SURFV
 70
     6
  9
$UCSNAME
  2

  9
$UCSORG
 10
0.0
 20
0.0
 30
0.0
  9
$UCSXDIR
 10
1.0
 20
0.0
 30
0.0
  9
$UCSYDIR
 10
0.0
 20
1.0
 30
0.0
  9
$PUCSNAME
  2

  9
$PUCSORG
 10
0.0
 20
0.0
 30
0.0
  9
$PUCSXDIR
 10
1.0
 20
0.0
 30
0.0
  9
$PUCSYDIR
 10
0.0
 20
1.0
 30
0.0
  9
$USERI1
 70
     0
  9
$USERI2
 70
     0
  9
$USERI3
 70
     0
  9
$USERI4
 70
     0
  9
$USERI5
 70
     0
  9
$USERR1
 40
0.0
  9
$USERR2
 40
0.0
  9
$USERR3
 40
0.0
  9
$USERR4
 40
0.0
  9
$USERR5
 40
0.0
  9
$WORLDVIEW
 70
     1
  9
$SHADEDGE
 70
     3
  9
$SHADEDIF
 70
    70
  9
$TILEMODE
 70
     1
  9
$MAXACTVP
 70
    16
  9
$PINSBASE
 10
0.0
 20
0.0
 30
0.0
  9
$PLIMCHECK
 70
     0
  9
$PEXTMIN
 10
1.000000000000000E+20
 20
1.000000000000000E+20
 30
1.000000000000000E+20
  9
$PEXTMAX
 10
-1.000000000000000E+20
 20
-1.000000000000000E+20
 30
-1.000000000000000E+20
  9
$PLIMMIN
 10
0.0
 20
0.0
  9
$PLIMMAX
 10
12.0
 20
9.0
  9
$UNITMODE
 70
     0
  9
$VISRETAIN
 70
     0
  9
$PLINEGEN
 70
     0
  9
$PSLTSCALE
 70
     1
  9
$TREEDEPTH
 70
  3020
  9
$DWGCODEPAGE
  3
dummy
  0
ENDSEC
  0
SECTION
  2
TABLES
  0
TABLE
  2
VPORT
 70
     2
  0
VPORT
  2
*ACTIVE
 70
     0
 10
0.0
 20
0.0
 11
1.0
 21
1.0
 12
24.96389755253693
 22
19.24449889258202
 13
0.0
 23
0.0
 14
0.5
 24
0.5
 15
5.0
 25
5.0
 16
0.0
 26
0.0
 36
1.0
 17
0.0
 27
0.0
 37
0.0
 40
119.2416024286929
 41
1.451162790697674
 42
50.0
 43
0.0
 44
0.0
 50
0.0
 51
0.0
 71
     0
 72
   100
 73
     1
 74
     2
 75
     0
 76
     0
 77
     0
 78
     0
  0
ENDTAB
  0
TABLE
  2
LTYPE
 70
     1
  0
LTYPE
  2
CONTINUOUS
 70
    64
  3
Solid line
 72
    65
 73
     0
 40
0.0
  0
ENDTAB
  0
TABLE
  2
LAYER
 70
     4
  0
LAYER
  2
0
 70
     0
 62
     7
  6
CONTINUOUS
  0
LAYER
  2
ITEM_HILFE
 70
    64
 62
     3
  6
CONTINUOUS
  0
LAYER
  2
ITEM_50
 70
    64
 62
     7
  6
CONTINUOUS
  0
LAYER
  2
ITEM_25
 70
    64
 62
     3
  6
CONTINUOUS
  0
ENDTAB
  0
TABLE
  2
STYLE
 70
     1
  0
STYLE
  2
STANDARD
 70
     0
 40
0.0
 41
1.0
 50
0.0
 71
     0
 42
1.75
  3
GENISO.SHX
  4

  0
ENDTAB
  0
TABLE
  2
VIEW
 70
     0
  0
ENDTAB
  0
TABLE
  2
UCS
 70
     0
  0
ENDTAB
  0
TABLE
  2
APPID
 70
     1
  0
APPID
  2
ACAD
 70
    64
  0
ENDTAB
  0
TABLE
  2
DIMSTYLE
 70
     1
  0
DIMSTYLE
  2
GENISO
 70
     0
  3

  4

  5

  6
GENAXEH
  7

 40
0.5
 41
2.5
 42
1.0
 43
7.0
 44
2.0
 45
0.0
 46
0.0
 47
0.1
 48
0.1
140
3.5
141
0.0
142
0.0
143
0.0393701
144
1.0
145
0.0
146
0.71
147
0.6
 71
     0
 72
     0
 73
     0
 74
     0
 75
     0
 76
     0
 77
     1
 78
     8
170
     0
171
     2
172
     1
173
     0
174
     0
175
     0
176
   256
177
   256
178
     2
  0
ENDTAB
  0
ENDSEC
  0
SECTION
  2
BLOCKS
  0
ENDSEC
  0
SECTION
  2
ENTITIES
  0
LINE
  8
ITEM_50
  5
1E
 10
-29.7777953606527
 20
14.99999999999988
 30
0.0
 11
-29.7777953606527
 21
-14.99961913198282
 31
0.0
  0
LINE
  8
ITEM_50
  5
1F
 10
-30.7777953606527
 20
14.99999999999988
 30
0.0
 11
-30.7777953606527
 21
-14.99961913198282
 31
0.0
  0
LINE
  8
ITEM_25
  5
20
 10
-29.86279029169708
 20
-9.728225661535134
 30
0.0
 11
-30.70803093591391
 21
-9.728225661535134
 31
0.0
  0
LINE
  8
ITEM_50
  5
22
 10
-29.7777953606527
 20
-14.99961913198282
 30
0.0
 11
-30.7777953606527
 21
-14.99961913198282
 31
0.0
  0
LINE
  8
ITEM_50
  5
23
 10
-29.7777953606527
 20
14.99999999999988
 30
0.0
 11
-30.7777953606527
 21
14.99999999999988
 31
0.0
  0
POLYLINE
  8
ITEM_50
  5
24
 66
     1
 10
0.0
 20
0.0
 30
0.0
 70
     1
  0
VERTEX
  8
ITEM_50
  5
25
 10
-3.099999999999909
 20
-12.80000000000143
 30
0.0
  0
VERTEX
  8
ITEM_50
  5
26
 10
-3.099999999999909
 20
-13.99961983925786
 30
0.0
 42
-0.4142135887083809
  0
VERTEX
  8
ITEM_50
  5
27
 10
-4.100000089914198
 20
-14.99961983925785
 30
0.0
  0
VERTEX
  8
ITEM_50
  5
28
 10
-11.96610274646647
 20
-14.99961913198282
 30
0.0
 42
-0.4208105757830796
  0
VERTEX
  8
ITEM_50
  5
29
 10
-14.99961913198285
 20
-11.96610274646639
 30
0.0
  0
VERTEX
  8
ITEM_50
  5
2A
 10
-14.99961983925776
 20
-4.10000008991441
 30
0.0
 42
-0.4142135887083766
  0
VERTEX
  8
ITEM_50
  5
2B
 10
-13.99961983925776
 20
-3.100000000000136
 30
0.0
  0
VERTEX
  8
ITEM_50
  5
2C
 10
-12.8000000000013
 20
-3.100000000000091
 30
0.0
 42
-0.4142135623730914
  0
VERTEX
  8
ITEM_50
  5
2D
 10
-12.00000000003285
 20
-3.899999999997703
 30
0.0
  0
VERTEX
  8
ITEM_50
  5
2E
 10
-12.00000000003303
 20
-5.299999999997688
 30
0.0
 42
-0.4142135623731008
  0
VERTEX
  8
ITEM_50
  5
2F
 10
-12.30000000003292
 20
-5.599999999997635
 30
0.0
  0
VERTEX
  8
ITEM_50
  5
30
 10
-13.200000000033
 20
-5.599999999997703
 30
0.0
 42
0.4142135623730951
  0
VERTEX
  8
ITEM_50
  5
31
 10
-13.50000000003297
 20
-5.899999999997703
 30
0.0
  0
VERTEX
  8
ITEM_50
  5
32
 10
-13.50000000003308
 20
-7.150000000024942
 30
0.0
 42
0.4142135623730925
  0
VERTEX
  8
ITEM_50
  5
33
 10
-12.50000000003308
 20
-8.150000000024988
 30
0.0
  0
VERTEX
  8
ITEM_50
  5
34
 10
-10.80685424954725
 20
-8.150000000025102
 30
0.0
 42
0.1989123673796578
  0
VERTEX
  8
ITEM_50
  5
35
 10
-8.68553390598754
 20
-7.271320343584875
 30
0.0
  0
VERTEX
  8
ITEM_50
  5
36
 10
-6.128679656473314
 20
-4.714466094070842
 30
0.0
 42
0.1989123673796509
  0
VERTEX
  8
ITEM_50
  5
37
 10
-5.250000000032969
 20
-2.593145750511325
 30
0.0
  0
VERTEX
  8
ITEM_50
  5
38
 10
-5.250000000032628
 20
2.593145750511628
 30
0.0
 42
0.1989123673796596
  0
VERTEX
  8
ITEM_50
  5
39
 10
-6.128679656472741
 20
4.714466094071326
 30
0.0
  0
VERTEX
  8
ITEM_50
  5
3A
 10
-8.685533905986911
 20
7.271320343585577
 30
0.0
 42
0.1989123673796577
  0
VERTEX
  8
ITEM_50
  5
3B
 10
-10.8068542495464
 20
8.150000000026011
 30
0.0
  0
VERTEX
  8
ITEM_50
  5
3C
 10
-12.50000000003236
 20
8.150000000026125
 30
0.0
 42
0.4142135623730925
  0
VERTEX
  8
ITEM_50
  5
3D
 10
-13.50000000003228
 20
7.150000000026125
 30
0.0
  0
VERTEX
  8
ITEM_50
  5
3E
 10
-13.50000000003256
 20
5.899999999998854
 30
0.0
 42
0.4142135623730951
  0
VERTEX
  8
ITEM_50
  5
3F
 10
-13.20000000003244
 20
5.599999999998772
 30
0.0
  0
VERTEX
  8
ITEM_50
  5
40
 10
-12.30000000003256
 20
5.599999999998817
 30
0.0
 42
-0.4142135623731008
  0
VERTEX
  8
ITEM_50
  5
41
 10
-12.0000000000324
 20
5.299999999998817
 30
0.0
  0
VERTEX
  8
ITEM_50
  5
42
 10
-12.00000000000131
 20
3.89999999999975
 30
0.0
 42
-0.4142135623730953
  0
VERTEX
  8
ITEM_50
  5
43
 10
-12.80000000000131
 20
3.099999999999795
 30
0.0
  0
VERTEX
  8
ITEM_50
  5
44
 10
-13.99962057655481
 20
3.099999999999795
 30
0.0
 42
-0.4142135360378144
  0
VERTEX
  8
ITEM_50
  5
45
 10
-14.99962057655481
 20
4.099999910085522
 30
0.0
  0
VERTEX
  8
ITEM_50
  5
46
 10
-14.99962128384695
 20
11.96629426238301
 30
0.0
 42
-0.4175082008217032
  0
VERTEX
  8
ITEM_50
  5
47
 10
-11.99981063594736
 20
14.99999999999988
 30
0.0
  0
VERTEX
  8
ITEM_50
  5
48
 10
-7.456640687133813
 20
15.0
 30
0.0
 42
-0.1989123673795793
  0
VERTEX
  8
ITEM_50
  5
49
 10
-5.335320343574852
 20
14.12132034356021
 30
0.0
  0
VERTEX
  8
ITEM_50
  5
4A
 10
14.12132034356409
 20
-5.335320343566081
 30
0.0
 42
-0.1989123673795742
  0
VERTEX
  8
ITEM_50
  5
4B
 10
15.000000000005
 20
-7.45664068712449
 30
0.0
  0
VERTEX
  8
ITEM_50
  5
4C
 10
15.00000000000795
 20
-11.99981063594577
 30
0.0
 42
-0.4175082008218966
  0
VERTEX
  8
ITEM_50
  5
4D
 10
11.96629426239105
 20
-14.99962128384729
 30
0.0
  0
VERTEX
  8
ITEM_50
  5
4E
 10
4.099999910085847
 20
-14.99962057655502
 30
0.0
 42
-0.4142135360378097
  0
VERTEX
  8
ITEM_50
  5
4F
 10
3.100000000000136
 20
-13.99962057655502
 30
0.0
  0
VERTEX
  8
ITEM_50
  5
50
 10
3.100000000000136
 20
-12.80000000000143
 30
0.0
 42
-0.4142135623730914
  0
VERTEX
  8
ITEM_50
  5
51
 10
3.90000000000009
 20
-12.00000000000143
 30
0.0
  0
VERTEX
  8
ITEM_50
  5
52
 10
5.299999999996771
 20
-12.00000000003456
 30
0.0
 42
-0.4142135623731006
  0
VERTEX
  8
ITEM_50
  5
53
 10
5.599999999996771
 20
-12.30000000003462
 30
0.0
  0
VERTEX
  8
ITEM_50
  5
54
 10
5.599999999996725
 20
-13.2000000000346
 30
0.0
 42
0.4142135623730951
  0
VERTEX
  8
ITEM_50
  5
55
 10
5.899999999996794
 20
-13.5000000000346
 30
0.0
  0
VERTEX
  8
ITEM_50
  5
56
 10
7.150000000024078
 20
-13.50000000003456
 30
0.0
 42
0.4142135623730925
  0
VERTEX
  8
ITEM_50
  5
57
 10
8.150000000024078
 20
-12.50000000003457
 30
0.0
  0
VERTEX
  8
ITEM_50
  5
58
 10
8.150000000024078
 20
-10.80685424954867
 30
0.0
 42
0.1989123673796578
  0
VERTEX
  8
ITEM_50
  5
59
 10
7.271320343583742
 20
-8.685533905989057
 30
0.0
  0
VERTEX
  8
ITEM_50
  5
5A
 10
4.714466094069621
 20
-6.128679656474901
 30
0.0
 42
0.1989123673796597
  0
VERTEX
  8
ITEM_50
  5
5B
 10
2.593145750509948
 20
-5.25000000003456
 30
0.0
  0
VERTEX
  8
ITEM_50
  5
5C
 10
-2.593145750513031
 20
-5.250000000034788
 30
0.0
 42
0.1989123673796486
  0
VERTEX
  8
ITEM_50
  5
5D
 10
-4.714466094072563
 20
-6.128679656474922
 30
0.0
  0
VERTEX
  8
ITEM_50
  5
5E
 10
-7.271320343586694
 20
-8.685533905989132
 30
0.0
 42
0.1989123673796577
  0
VERTEX
  8
ITEM_50
  5
5F
 10
-8.150000000027034
 20
-10.8068542495487
 30
0.0
  0
VERTEX
  8
ITEM_50
  5
60
 10
-8.150000000027034
 20
-12.50000000003456
 30
0.0
 42
0.4142135623730925
  0
VERTEX
  8
ITEM_50
  5
61
 10
-7.150000000027034
 20
-13.50000000003456
 30
0.0
  0
VERTEX
  8
ITEM_50
  5
62
 10
-5.899999999999749
 20
-13.50000000003456
 30
0.0
 42
0.4142135623730951
  0
VERTEX
  8
ITEM_50
  5
63
 10
-5.59999999999975
 20
-13.2000000000346
 30
0.0
  0
VERTEX
  8
ITEM_50
  5
64
 10
-5.599999999999681
 20
-12.30000000003462
 30
0.0
 42
-0.4142135623731006
  0
VERTEX
  8
ITEM_50
  5
65
 10
-5.299999999999721
 20
-12.00000000003462
 30
0.0
  0
VERTEX
  8
ITEM_50
  5
66
 10
-3.899999999999749
 20
-12.00000000003456
 30
0.0
 42
-0.4142135623730953
  0
SEQEND
  8
ITEM_50
  5
67
  0
CIRCLE
  8
ITEM_50
  5
68
 10
0.0
 20
0.0
 30
0.0
 40
2.5
  0
POLYLINE
  8
ITEM_50
  5
69
 66
     1
 10
0.0
 20
0.0
 30
0.0
 70
     1
  0
VERTEX
  8
ITEM_50
  5
6A
 10
-2.608570452379694
 20
5.249999999967144
 30
0.0
  0
VERTEX
  8
ITEM_50
  5
6B
 10
-0.4995339059520605
 20
5.249999999967485
 30
0.0
 42
0.6681786379178609
  0
VERTEX
  8
ITEM_50
  5
6C
 10
-0.1459805153575644
 20
6.103553390559454
 30
0.0
  0
VERTEX
  8
ITEM_50
  5
6D
 10
-7.296446609405506
 20
13.25401948466174
 30
0.0
 42
0.668178637919867
  0
VERTEX
  8
ITEM_50
  5
6E
 10
-8.15000000000009
 20
12.90046609407088
 30
0.0
  0
VERTEX
  8
ITEM_50
  5
6F
 10
-8.150000000004752
 20
10.78421687413185
 30
0.0
 42
0.1992817083260183
  0
VERTEX
  8
ITEM_50
  5
70
 10
-7.268303733379502
 20
8.659884204045054
 30
0.0
  0
VERTEX
  8
ITEM_50
  5
71
 10
-4.726874185754468
 20
6.125667329886709
 30
0.0
 42
0.1985430786293657
  0
SEQEND
  8
ITEM_50
  5
72
  0
POINT
  8
ITEM_HILFE
  5
73
 10
-12.00000000000131
 20
0.000000000000151
 30
0.0
  0
POINT
  8
ITEM_HILFE
  5
75
 10
-14.99962057655481
 20
0.000000000000151
 30
0.0
  0
POLYLINE
  8
ITEM_50
  5
76
 66
     1
 10
0.0
 20
0.0
 30
0.0
 70
     1
  0
VERTEX
  8
ITEM_50
  5
77
 10
-12.00000000002705
 20
-13.5000000000017
 30
0.0
  0
VERTEX
  8
ITEM_50
  5
78
 10
-9.950000000027102
 20
-13.50000000000175
 30
0.0
 42
0.4142135623730943
  0
VERTEX
  8
ITEM_50
  5
79
 10
-9.650000000027034
 20
-13.20000000000175
 30
0.0
  0
VERTEX
  8
ITEM_50
  5
7A
 10
-9.650000000026988
 20
-9.950000000006411
 30
0.0
 42
0.414213562372435
  0
VERTEX
  8
ITEM_50
  5
7B
 10
-9.950000000026312
 20
-9.650000000006411
 30
0.0
  0
VERTEX
  8
ITEM_50
  5
7C
 10
-13.20000000002642
 20
-9.649999999999067
 30
0.0
 42
0.414213562373752
  0
VERTEX
  8
ITEM_50
  5
7D
 10
-13.50000000002699
 20
-9.949999999999022
 30
0.0
  0
VERTEX
  8
ITEM_50
  5
7E
 10
-13.50000000002705
 20
-12.0000000000017
 30
0.0
 42
0.4142135623730894
  0
SEQEND
  8
ITEM_50
  5
7F
  0
POINT
  8
ITEM_HILFE
  5
80
 10
-14.99961913198285
 20
-14.99962057655481
 30
0.0
  0
POLYLINE
  8
ITEM_50
  5
81
 66
     1
 10
0.0
 20
0.0
 30
0.0
 70
     1
  0
VERTEX
  8
ITEM_50
  5
82
 10
-13.20000000000185
 20
9.650000000023691
 30
0.0
 42
-0.4142135623730945
  0
VERTEX
  8
ITEM_50
  5
83
 10
-13.50000000000181
 20
9.950000000023692
 30
0.0
  0
VERTEX
  8
ITEM_50
  5
84
 10
-13.50000000000181
 20
12.00000000000794
 30
0.0
 42
-0.4142135623730951
  0
VERTEX
  8
ITEM_50
  5
85
 10
-12.00000000000182
 20
13.50000000000795
 30
0.0
  0
VERTEX
  8
ITEM_50
  5
86
 10
-9.949999999999363
 20
13.50000000000784
 30
0.0
 42
-0.4142135623737366
  0
VERTEX
  8
ITEM_50
  5
87
 10
-9.649999999999362
 20
13.20000000000723
 30
0.0
  0
VERTEX
  8
ITEM_50
  5
88
 10
-9.650000000006457
 20
9.950000000023123
 30
0.0
 42
-0.4142135623724351
  0
VERTEX
  8
ITEM_50
  5
89
 10
-9.950000000006518
 20
9.650000000023691
 30
0.0
  0
SEQEND
  8
ITEM_50
  5
8A
  0
POINT
  8
ITEM_HILFE
  5
8B
 10
-14.99961913198285
 20
14.99962057655481
 30
0.0
  0
POINT
  8
ITEM_HILFE
  5
8C
 10
-0.0000000000001457
 20
-12.00000000000131
 30
0.0
  0
POINT
  8
ITEM_HILFE
  5
8D
 10
-0.0000000000001443
 20
-14.99962057655481
 30
0.0
  0
POLYLINE
  8
ITEM_50
  5
8E
 66
     1
 10
0.0
 20
0.0
 30
0.0
 70
     1
  0
VERTEX
  8
ITEM_50
  5
8F
 10
6.125667329886864
 20
-4.726874185754486
 30
0.0
 42
-0.1985430786293655
  0
VERTEX
  8
ITEM_50
  5
90
 10
5.249999999967258
 20
-2.608570452379694
 30
0.0
  0
VERTEX
  8
ITEM_50
  5
91
 10
5.249999999967599
 20
-0.4995339059521964
 30
0.0
 42
-0.6681786379178766
  0
VERTEX
  8
ITEM_50
  5
92
 10
6.103553390559568
 20
-0.1459805153576781
 30
0.0
  0
VERTEX
  8
ITEM_50
  5
93
 10
13.25401948466174
 20
-7.296446609405506
 30
0.0
 42
-0.6681786379198832
  0
VERTEX
  8
ITEM_50
  5
94
 10
12.90046609407086
 20
-8.15000000000009
 30
0.0
  0
VERTEX
  8
ITEM_50
  5
95
 10
10.78421687413197
 20
-8.150000000004752
 30
0.0
 42
-0.1992817083260183
  0
VERTEX
  8
ITEM_50
  5
96
 10
8.659884204045189
 20
-7.268303733379523
 30
0.0
  0
SEQEND
  8
ITEM_50
  5
97
  0
POLYLINE
  8
ITEM_50
  5
98
 66
     1
 10
0.0
 20
0.0
 30
0.0
 70
     1
  0
VERTEX
  8
ITEM_50
  5
99
 10
12.00000000000807
 20
-13.50000000000181
 30
0.0
 42
0.4142135623730951
  0
VERTEX
  8
ITEM_50
  5
9A
 10
13.50000000000807
 20
-12.00000000000182
 30
0.0
  0
VERTEX
  8
ITEM_50
  5
9B
 10
13.500000000008
 20
-9.949999999999363
 30
0.0
 42
0.4142135623737392
  0
VERTEX
  8
ITEM_50
  5
9C
 10
13.20000000000732
 20
-9.649999999999408
 30
0.0
  0
VERTEX
  8
ITEM_50
  5
9D
 10
9.950000000023237
 20
-9.650000000006457
 30
0.0
 42
0.414213562372435
  0
VERTEX
  8
ITEM_50
  5
9E
 10
9.650000000023805
 20
-9.950000000006522
 30
0.0
  0
VERTEX
  8
ITEM_50
  5
9F
 10
9.650000000023851
 20
-13.20000000000186
 30
0.0
 42
0.4142135623730944
  0
VERTEX
  8
ITEM_50
  5
A0
 10
9.950000000023916
 20
-13.50000000000186
 30
0.0
  0
SEQEND
  8
ITEM_50
  5
A1
  0
POINT
  8
ITEM_HILFE
  5
A2
 10
14.99961913198256
 20
-14.99962057655481
 30
0.0
  0
LINE
  8
ITEM_50
  5
A3
 10
29.7777953606527
 20
14.99999999999988
 30
0.0
 11
29.7777953606527
 21
-14.99961913198282
 31
0.0
  0
LINE
  8
ITEM_50
  5
A4
 10
30.7777953606527
 20
14.99999999999988
 30
0.0
 11
30.7777953606527
 21
-14.99961913198282
 31
0.0
  0
LINE
  8
ITEM_50
  5
A5
 10
29.7777953606527
 20
-3.100000000000091
 30
0.0
 11
30.77779536065269
 21
-3.10000000000009
 31
0.0
  0
LINE
  8
ITEM_50
  5
A6
 10
29.7777953606527
 20
-14.99961913198282
 30
0.0
 11
30.7777953606527
 21
-14.99961913198282
 31
0.0
  0
LINE
  8
ITEM_50
  5
A7
 10
29.7777953606527
 20
3.099999999999794
 30
0.0
 11
30.77779536065269
 21
3.099999999999794
 31
0.0
  0
LINE
  8
ITEM_50
  5
A8
 10
29.7777953606527
 20
14.99999999999988
 30
0.0
 11
30.7777953606527
 21
14.99999999999988
 31
0.0
  0
ENDSEC
  0
EOF
